ISO-10303-21;
HEADER;
FILE_DESCRIPTION(('STEP FEA test data geometry','AP203 class 6 - advanced
brep'),'2;1');
FILE_NAME('le9abrep.stp','2001-04-09 T11:00:00',
('R. Goult'),
('Caesar Systems',
'LMR Systems'),
'Hand coded',
'Original NAFEMS data',
'R. Goult');
FILE_SCHEMA(('CONFIG_CONTROL_DESIGN'));
ENDSEC;
DATA;


#1=PRODUCT('LE9solid','LE9 Solid Model','Cylinder sphere branched shell with
explicit thickness LE9 test piece',(#2));
#2=MECHANICAL_CONTEXT('detailed design',#3,'mechanical');
#3=APPLICATION_CONTEXT('Control the configuration of three dimensional design');
#300=APPLICATION_PROTOCOL_DEFINITION('AP definition status', 'config_control_design', 1994, #3);
#4=CC_DESIGN_PERSON_AND_ORGANIZATION_ASSIGNMENT(#5,#8,(#1));
#5=PERSON_AND_ORGANIZATION(#6,#7);
#6=PERSON('001','Goult','Ray',$,$,$);
#7=ORGANIZATION($,'LMR Systems','Consultancy');
#8=PERSON_AND_ORGANIZATION_ROLE('design_owner');
#9=PRODUCT_RELATED_PRODUCT_CATEGORY('detail','Part Type for product 11111',(#1));
#10=PRODUCT_DEFINITION_FORMATION_WITH_SPECIFIED_SOURCE('LE11S','Description of version with specified source for part LE11',#1,.NOT_KNOWN.);
#11=PERSON_AND_ORGANIZATION_ROLE('creator');
#12=CC_DESIGN_PERSON_AND_ORGANIZATION_ASSIGNMENT(#5,#11,(#10));
#44=CC_DESIGN_APPROVAL(#45,(#10));
#45=APPROVAL(#46,'Approved as initial STEP test case geometry');
#46=APPROVAL_STATUS('approved');
#47=APPROVAL_DATE_TIME(#48,#45);
#48=DATE_AND_TIME(#50,#51);
#50=CALENDAR_DATE(2001,9,4);
#51=LOCAL_TIME(11,29,$,#29);
#69=APPROVAL_PERSON_ORGANIZATION(#5,#45,#72);
#72=APPROVAL_ROLE('Authorize test data release');
#31=CC_DESIGN_SECURITY_CLASSIFICATION(#32,(#10));
#32=SECURITY_CLASSIFICATION('2000-LE11','open availability of STEP test data',#33);
#33=SECURITY_CLASSIFICATION_LEVEL('unclassified');
#34=CC_DESIGN_DATE_AND_TIME_ASSIGNMENT(#48,#39,(#32));
#39=DATE_TIME_ROLE('classification_date');
#40=CC_DESIGN_PERSON_AND_ORGANIZATION_ASSIGNMENT(#5,#43,(#32));
#43=PERSON_AND_ORGANIZATION_ROLE('classification_officer');
#53=CC_DESIGN_APPROVAL(#54,(#32));
#54=APPROVAL(#55,'Approved as unclassified STEP test data');
#55=APPROVAL_STATUS('approved');
#56=APPROVAL_DATE_TIME(#48,#54);
#73=APPROVAL_PERSON_ORGANIZATION(#5,#54,#76);
#76=APPROVAL_ROLE('Authorize security code');
#17=PRODUCT_DEFINITION('D-LE11','geometric model as planned for STEP testing',#10,#18);
#18=DESIGN_CONTEXT('detailed design',#3,'design');
#19=CC_DESIGN_PERSON_AND_ORGANIZATION_ASSIGNMENT(#5,#23,(#17));
#23=PERSON_AND_ORGANIZATION_ROLE('creator');
#24=CC_DESIGN_DATE_AND_TIME_ASSIGNMENT(#25,#30,(#17));
#25=DATE_AND_TIME(#27,#28);
#27=CALENDAR_DATE(2001,9,4);
#28=LOCAL_TIME(12,16,$,#29);
#29=COORDINATED_UNIVERSAL_TIME_OFFSET(1,$,.AHEAD.);
#30=DATE_TIME_ROLE('creation_date');
#61=CC_DESIGN_APPROVAL(#62,(#17));
#62=APPROVAL(#63,'Approved as STEP FEA test geometry');
#63=APPROVAL_STATUS('approved');
#64=APPROVAL_DATE_TIME(#25,#62);
#77=APPROVAL_PERSON_ORGANIZATION(#5,#62,#79);
#79=APPROVAL_ROLE('Authorize product definition');
#80=CC_DESIGN_PERSON_AND_ORGANIZATION_ASSIGNMENT(#81,#84,(#10));
#81=PERSON_AND_ORGANIZATION(#82,#83);
#82=PERSON('CDI-2','Smith','John',$,$,$);
#83=ORGANIZATION('NAFEMS','NAFEMS Ltd.','engineering analysis organization');
#84=PERSON_AND_ORGANIZATION_ROLE('design_supplier');

/* Geometry Definition - actual geometry  - curved surfaces are spherical,
 or cylindrical - NAFEMS dimensions assumed to be of mid-surface
 Suffix I in names refers to inner surface, suffix O to outer surface  */
/* Any instance of global_unit_assigned_context in AP203 shall contain exactly:
 length_unit
 plane_angle_unit
 solid_angle_unit   */
#9040 =(LENGTH_UNIT()NAMED_UNIT(*)SI_UNIT($,.METRE.));
#9041 =(NAMED_UNIT(*)PLANE_ANGLE_UNIT()SI_UNIT($,.RADIAN.));
#9042 =(NAMED_UNIT(*)SOLID_ANGLE_UNIT()SI_UNIT($,.STERADIAN.));
#9043=UNCERTAINTY_MEASURE_WITH_UNIT(LENGTH_MEASURE(0.00000001),#9040,'umsu1','');
#9100 = CARTESIAN_POINT('origin',(0.0,0.0,0.0));
#9102 = DIRECTION('Dir2',(0.0,1.0,0.0));
#9103 = DIRECTION('Dir3',(0.0,0.0,1.0));
#9112 = AXIS2_PLACEMENT_3D('Ax2P3DCyl',#9100,#9102,#9103);
#9120 = CARTESIAN_POINT('CentreSph',(0.0,1.70710678,0.0));
#9121 = AXIS2_PLACEMENT_3D('Ax2P3DSph',#9120,#9102,#9103);
/* Points and vertices for cylindrical faces   */
#9131 = CARTESIAN_POINT('PtAO',(0.71210678,0.0,0.0));
#9132 = VERTEX_POINT('VertPtAO',#9131);
#9133 = CARTESIAN_POINT('PtAI',(0.70210678,0.0,0.0));
#9134 = VERTEX_POINT('VertPtAI',#9133);
#9135 = CARTESIAN_POINT('PtDO',(0.71210678,2.0,0.0));
#9136 = VERTEX_POINT('VertPtDO',#9135);
#9137 = CARTESIAN_POINT('PtDI',(0.70210678,2.0,0.0));
#9138 = VERTEX_POINT('VertPtDI',#9137);
/* Points and vertices for spherical face, CI and CO are at intersection with
inner cylinder */
#9139 = CARTESIAN_POINT('PtCI',(0.70210678, 1.012175897, 0.0));
#9140 = VERTEX_POINT('VertPtCI',#9139);
#9141 = CARTESIAN_POINT('PtCO',(0.70210678, 0.997931955, 0.0));
#9142 = VERTEX_POINT('VertPtCO)',#9141);
/* Surfaces and edge_curves
   Circ1 is at base, circ2I and circ2O are at intersections of spheres and
   inner cylinder, Circ3 is at top of cylinder */
#9143 = CYLINDRICAL_SURFACE('CylinderI',#9112, 0.70210678);
#9144 = CYLINDRICAL_SURFACE('CylinderO',#9112, 0.71210678);
#9145 = SPHERICAL_SURFACE('SphereI',#9121, 0.995);
#9146 = SPHERICAL_SURFACE('SphereO',#9121, 1.005);
#9147 = CIRCLE('Circ1I',#9112, 0.70210678);
#9148 = CIRCLE('Circ1O',#9112, 0.71210678);
#9149 = CARTESIAN_POINT('CentreCO',(0.0, 0.997931955,  0.0));
#9150 = AXIS2_PLACEMENT_3D('Ax2P3DCirc2O',#9149,#9102,#9103);
#9151 = CIRCLE('Circ2O',#9150, 0.70210678);
#9152 = CARTESIAN_POINT('CentreCI',(0.0, 1.012175897,  0.0));
#9153 = AXIS2_PLACEMENT_3D('Ax2P3DCirc2I',#9152,#9102,#9103);
#9154 = CIRCLE('Circ2I',#9153, 0.70210678);
#9155 = CARTESIAN_POINT('CentreD',(0.0, 2.0, 0.0));
#9156 = AXIS2_PLACEMENT_3D('Ax2P3DCirc3',#9155,#9102,#9103);
#9157 = CIRCLE('Circ3I',#9156, 0.70210678);
#9158 = CIRCLE('Circ3O',#9156, 0.71210678);
#9159 = EDGE_CURVE('EdgeAACirc1O',#9132,#9132,#9148,.T.);
#9160 = EDGE_CURVE('EdgeAACirc1I',#9134,#9134,#9147,.T.);
#9161 = EDGE_CURVE('EdgeCCCirc2O',#9142,#9142,#9151,.T.);
#9162 = EDGE_CURVE('EdgeCCCirc2I',#9140,#9140,#9154,.T.);
#9163 = EDGE_CURVE('EdgeDDCirc3O',#9136,#9136,#9158,.T.);
#9164 = EDGE_CURVE('EdgeDDCirc3I',#9138,#9138,#9157,.T.);
/* oriented_edges */
#9166 = ORIENTED_EDGE('AAOT',*,*,#9159,.T.);
#9168 = ORIENTED_EDGE('AAOF',*,*,#9159,.F.);
#9169 = ORIENTED_EDGE('AAIT',*,*,#9160,.T.);
#9170 = ORIENTED_EDGE('AAIF',*,*,#9160,.F.);
#9171 = ORIENTED_EDGE('DDOT',*,*,#9163,.T.);
#9172 = ORIENTED_EDGE('DDOF',*,*,#9163,.F.);
#9173 = ORIENTED_EDGE('DDIT',*,*,#9164,.T.);
#9174 = ORIENTED_EDGE('DDIF',*,*,#9164,.F.);
#9175 = ORIENTED_EDGE('CCOT',*,*,#9161,.T.);
#9176 = ORIENTED_EDGE('CCOF',*,*,#9161,.F.);
#9177 = ORIENTED_EDGE('CCIT',*,*,#9162,.T.);
#9178 = ORIENTED_EDGE('CCIF',*,*,#9162,.F.);
/* edge_loop */
#9201 = EDGE_LOOP('ELAAOT',(#9166));
#9202 = EDGE_LOOP('ELAAOF',(#9168));
#9203 = EDGE_LOOP('ELAAIT',(#9169));
#9204 = EDGE_LOOP('ELAAIF',(#9170));
#9205 = EDGE_LOOP('ELDDOT',(#9171));
#9206 = EDGE_LOOP('ELDDOF',(#9172));
#9207 = EDGE_LOOP('ELDDIT',(#9173));
#9208 = EDGE_LOOP('ELDDIF',(#9174));
#9209 = EDGE_LOOP('ELCCOT',(#9175));
#9210 = EDGE_LOOP('ELCCOF',(#9176));
#9211 = EDGE_LOOP('ELCCIT',(#9177));
#9212 = EDGE_LOOP('ELCCIF',(#9178));
/* face_bounds and advanced_faces */
#9213 = FACE_BOUND('OutCylbot',#9201,.T.);
#9214 = FACE_BOUND('OutCyltop',#9206,.T.);
#9215 = FACE_OUTER_BOUND('Sphtop',#9211,.T.);
#9216 = FACE_OUTER_BOUND('Sphbot',#9210,.T.);
#9217 = FACE_BOUND('InCyl1bot',#9204,.T.);
#9218 = FACE_BOUND('InCyl1top',#9209,.T.);
#9219 = FACE_BOUND('InCyl2bot',#9212,.T.);
#9220 = FACE_BOUND('InCyl2top',#9207,.T.);
#9221 = FACE_BOUND('InCircbot',#9203,.T.);
#9222 = FACE_OUTER_BOUND('OutCircbot',#9202,.T.);
#9223 = FACE_BOUND('InCirctop',#9208,.T.);
#9224 = FACE_OUTER_BOUND('OutCirctop',#9205,.T.);
#9230 = ADVANCED_FACE('OutCylFace',(#9213, #9214),#9144,.T.);
#9231 = ADVANCED_FACE('InCyl1Face',(#9217, #9218),#9143,.F.);
#9232 = ADVANCED_FACE('InCyl2Face',(#9219, #9220),#9143,.F.);
#9233 = ADVANCED_FACE('SphTopFace',(#9215),#9145,.F.);
#9234 = ADVANCED_FACE('SphBotFace',(#9216),#9146,.T.);
/* Planes and planar disc faces */
#9235 = PLANE('Baseplane',#9112);
#9236 = ADVANCED_FACE('Base',(#9221, #9222),#9235,.F.);
#9237 = PLANE('Topplane',#9112);
#9238 = ADVANCED_FACE('Top',(#9223, #9224),#9237,.T.);
/* closed_shell and solid model
NOTE: surface model was non-manifold but with explicit thickness modelled
solid model is manifold */
#9330 = CLOSED_SHELL('LE9shell',(#9230,#9236,#9232,#9233,#9234,#9231,#9238));
#9331 = MANIFOLD_SOLID_BREP('BrepLE9',#9330);
#9332 = (GEOMETRIC_REPRESENTATION_CONTEXT(3)
        GLOBAL_UNCERTAINTY_ASSIGNED_CONTEXT((#9043))
        GLOBAL_UNIT_ASSIGNED_CONTEXT((#9040,#9041,#9042))
        REPRESENTATION_CONTEXT('CONTEXT for LE9 solid',
        'This is a 3D context using metres'));
#9340 = ADVANCED_BREP_SHAPE_REPRESENTATION('ABShapeRep9',(#9331),#9332);

/* Linking shape rep to ddpd */
#9350=SHAPE_DEFINITION_REPRESENTATION(#9360,#9340);
#9360=PRODUCT_DEFINITION_SHAPE('ABR_Shape','Shape of LE9',#17);
ENDSEC;
END-ISO-10303-21;
