ISO-10303-21;
HEADER;
FILE_DESCRIPTION(('STEP FEA test data geometry','AP203 class  - Advanced
B-rep'),'2;1');
FILE_NAME('le8abrep.stp','2001-04-11 T20:21:00',
('R. Goult'),
('Caesar Systems',
'LMR Systems'),
'Hand coded',
'Original NAFEMS data',
'R. Goult');
FILE_SCHEMA(('CONFIG_CONTROL_DESIGN'));
ENDSEC;
DATA;


#1=PRODUCT('LE8surf','LE8 Brep Model','Shell with
cylindrical, toroidal and spherical components, LE8 test piece',(#2));
#2=MECHANICAL_CONTEXT('detailed design',#3,'mechanical');
#3=APPLICATION_CONTEXT('Control the configuration of three dimensional design');
#300=APPLICATION_PROTOCOL_DEFINITION('AP definition status', 'config_control_design', 1994, #3);
#4=CC_DESIGN_PERSON_AND_ORGANIZATION_ASSIGNMENT(#5,#8,(#1));
#5=PERSON_AND_ORGANIZATION(#6,#7);
#6=PERSON('001','Goult','Ray',$,$,$);
#7=ORGANIZATION($,'LMR Systems','Consultancy');
#8=PERSON_AND_ORGANIZATION_ROLE('design_owner');
#9=PRODUCT_RELATED_PRODUCT_CATEGORY('detail','Part Type for product 11111',(#1));
#10=PRODUCT_DEFINITION_FORMATION_WITH_SPECIFIED_SOURCE('LE1S','Description of version with specified source for part LE1',#1,.NOT_KNOWN.);
#11=PERSON_AND_ORGANIZATION_ROLE('creator');
#12=CC_DESIGN_PERSON_AND_ORGANIZATION_ASSIGNMENT(#5,#11,(#10));
#44=CC_DESIGN_APPROVAL(#45,(#10));
#45=APPROVAL(#46,'Approved as initial STEP test case geometry');
#46=APPROVAL_STATUS('approved');
#47=APPROVAL_DATE_TIME(#48,#45);
#48=DATE_AND_TIME(#50,#51);
#50=CALENDAR_DATE(2001,11,4);
#51=LOCAL_TIME(11,29,$,#29);
#69=APPROVAL_PERSON_ORGANIZATION(#5,#45,#72);
#72=APPROVAL_ROLE('Authorize test data release');
#31=CC_DESIGN_SECURITY_CLASSIFICATION(#32,(#10));
#32=SECURITY_CLASSIFICATION('2000-LE1','open availability of STEP test data',#33);
#33=SECURITY_CLASSIFICATION_LEVEL('unclassified');
#34=CC_DESIGN_DATE_AND_TIME_ASSIGNMENT(#48,#39,(#32));
#39=DATE_TIME_ROLE('classification_date');
#40=CC_DESIGN_PERSON_AND_ORGANIZATION_ASSIGNMENT(#5,#43,(#32));
#43=PERSON_AND_ORGANIZATION_ROLE('classification_officer');
#53=CC_DESIGN_APPROVAL(#54,(#32));
#54=APPROVAL(#55,'Approved as unclassified STEP test data');
#55=APPROVAL_STATUS('approved');
#56=APPROVAL_DATE_TIME(#48,#54);
#73=APPROVAL_PERSON_ORGANIZATION(#5,#54,#76);
#76=APPROVAL_ROLE('Authorize security code');
#17=PRODUCT_DEFINITION('D-LE1','geometric model as planned for STEP testing',#10,#18);
#18=DESIGN_CONTEXT('detailed design',#3,'design');
#19=CC_DESIGN_PERSON_AND_ORGANIZATION_ASSIGNMENT(#5,#23,(#17));
#23=PERSON_AND_ORGANIZATION_ROLE('creator');
#24=CC_DESIGN_DATE_AND_TIME_ASSIGNMENT(#25,#30,(#17));
#25=DATE_AND_TIME(#27,#28);
#27=CALENDAR_DATE(2001,11,4);
#28=LOCAL_TIME(12,16,$,#29);
#29=COORDINATED_UNIVERSAL_TIME_OFFSET(1,$,.AHEAD.);
#30=DATE_TIME_ROLE('creation_date');
#61=CC_DESIGN_APPROVAL(#62,(#17));
#62=APPROVAL(#63,'Approved as STEP FEA test geometry');
#63=APPROVAL_STATUS('approved');
#64=APPROVAL_DATE_TIME(#25,#62);
#77=APPROVAL_PERSON_ORGANIZATION(#5,#62,#79);
#79=APPROVAL_ROLE('Authorize product definition');
#80=CC_DESIGN_PERSON_AND_ORGANIZATION_ASSIGNMENT(#81,#84,(#10));
#81=PERSON_AND_ORGANIZATION(#82,#83);
#82=PERSON('CDI-2','Smith','John',$,$,$);
#83=ORGANIZATION('NAFEMS','NAFEMS Ltd.','engineering analysis organization');
#84=PERSON_AND_ORGANIZATION_ROLE('design_supplier');

/* Geometry Definition - model is of shell with explicit thickness
 model uses cylinder + torus + sphere to construct axi-symmetric shell,
 axis of symmetry is Y axis,  (thickness = 0.01 metre) */
/* Any instance of global_unit_assigned_context in AP203 shall contain exactly:
 length_unit
 plane_angle_unit
 solid_angle_unit   */
#9040 =(LENGTH_UNIT()NAMED_UNIT(*)SI_UNIT($,.METRE.));
#9041 =(NAMED_UNIT(*)PLANE_ANGLE_UNIT()SI_UNIT($,.RADIAN.));
#9042 =(NAMED_UNIT(*)SOLID_ANGLE_UNIT()SI_UNIT($,.STERADIAN.));
#9043=UNCERTAINTY_MEASURE_WITH_UNIT(LENGTH_MEASURE(0.00000001),#9040,'umsu1','');
#9100 = CARTESIAN_POINT('origin',(0.0,0.0,0.0));
#9102 = DIRECTION('Dir2',(0.0,1.0,0.0));
#9103 = DIRECTION('Dir3',(0.0,0.0,1.0));
#9112 = AXIS2_PLACEMENT_3D('Ax2P3DCyl',#9100,#9102,#9103);
#9120 = CARTESIAN_POINT('CentreTop',(0.0, 0.5, 0.0));
#9121 = AXIS2_PLACEMENT_3D('Ax2P3DTorus',#9120,#9102,#9103);
#9122 = CARTESIAN_POINT('CentreSph',(0.0, 0.75, 0.0));
#9123 = AXIS2_PLACEMENT_3D('Ax2P3DSph',#9122,#9102,#9103);
#9124 = CARTESIAN_POINT('CentreCirc3I',(0.0, 0.546, 0.0));
#9125 = AXIS2_PLACEMENT_3D('Ax2P3DCirc3I',#9124,#9102,#9103);
#9126 = CARTESIAN_POINT('CentreCirc3O',(0.0, 0.554, 0.0));
#9127 = AXIS2_PLACEMENT_3D('Ax2P3DCirc3O',#9126,#9102,#9103);
/* Points and vertices for face boundaries A at base, B: Cyl x Torus,
    D: Torus x Sphere. */
#9128 = CARTESIAN_POINT('PtAI',(0.245, 0.0, 0.0));
#9129 = VERTEX_POINT('VertPtAI',#9128);
#9130 = CARTESIAN_POINT('PtAO',(0.255, 0.0, 0.0));
#9131 = VERTEX_POINT('VertPtAO',#9130);
#9132 = CARTESIAN_POINT('PtBI',(0.245 ,0.5 ,0.0));
#9133 = VERTEX_POINT('VertPtBI',#9132);
#9134 = CARTESIAN_POINT('PtBO',(0.255 ,0.5 ,0.0));
#9135 = VERTEX_POINT('VertPtBI',#9134);
#9136 = CARTESIAN_POINT('PtDI',(0.153 ,0.546 ,0.0));
#9137 = VERTEX_POINT('VertPtDI',#9136);
#9138 = CARTESIAN_POINT('PtDO',(0.147 ,0.554 ,0.0));
#9139 = VERTEX_POINT('VertPtDO',#9138);
/*  Surfaces and edge_curves
   Circ1 is at base, circ2 is at cylinder x torus, circ3 is torus x sphere
   suffix O refers to outer surface, suffix I to inner surface.
   Inner sherical surface is larger than outer */
#9141 = CYLINDRICAL_SURFACE('CylI',#9112, 0.245);
#9142 = TOROIDAL_SURFACE('TorusI',#9121, 0.1875, 0.0575);
#9143 = SPHERICAL_SURFACE('SphereI', #9123, 0.255);
#9144 = CYLINDRICAL_SURFACE('CylO',#9112, 0.255);
#9145 = TOROIDAL_SURFACE('TorusO',#9121, 0.1875, 0.0675);
#9146 = SPHERICAL_SURFACE('SphereO', #9123, 0.245);
#9147 = PLANE('Baseplane', #9112);
#9150 = CIRCLE('Circ1I',#9112, 0.245);
#9151 = CIRCLE('Circ2I',#9121, 0.245);
#9152 = CIRCLE('Circ3I',#9125, 0.153);
#9153 = CIRCLE('Circ1O',#9112, 0.255);
#9154 = CIRCLE('Circ2O',#9121, 0.255);
#9155 = CIRCLE('Circ3O',#9127, 0.147);
#9156 = EDGE_CURVE('EdgeAACirc1I',#9129,#9129,#9150,.T.);
#9157 = EDGE_CURVE('EdgeBBCirc2I',#9133,#9133,#9151,.T.);
#9158 = EDGE_CURVE('EdgeDDCirc3I',#9137,#9137,#9152,.T.);
#9159 = EDGE_CURVE('EdgeAACirc1O',#9131,#9131,#9153,.T.);
#9160 = EDGE_CURVE('EdgeBBCirc2O',#9135,#9135,#9154,.T.);
#9161 = EDGE_CURVE('EdgeDDCirccO',#9139,#9139,#9155,.T.);
/* oriented_edges */
#9162 = ORIENTED_EDGE('AAIT',*,*,#9156,.T.);
#9163 = ORIENTED_EDGE('AAIF',*,*,#9156,.F.);
#9164 = ORIENTED_EDGE('BBIT',*,*,#9157,.T.);
#9165 = ORIENTED_EDGE('BBIF',*,*,#9157,.F.);
#9166 = ORIENTED_EDGE('DDIT',*,*,#9158,.T.);
#9167 = ORIENTED_EDGE('DDIF',*,*,#9158,.F.);
#9168 = ORIENTED_EDGE('AAOT',*,*,#9159,.T.);
#9169 = ORIENTED_EDGE('AAOF',*,*,#9159,.F.);
#9170 = ORIENTED_EDGE('BBOT',*,*,#9160,.T.);
#9171 = ORIENTED_EDGE('BBOF',*,*,#9160,.F.);
#9172 = ORIENTED_EDGE('DDOT',*,*,#9161,.T.);
#9173 = ORIENTED_EDGE('DDOF',*,*,#9161,.F.);
/* edge_loops */
#9201 = EDGE_LOOP('ELAAIT',(#9162));
#9202 = EDGE_LOOP('ELAAIF',(#9163));
#9203 = EDGE_LOOP('ELBBIT',(#9164));
#9204 = EDGE_LOOP('ELBBIF',(#9165));
#9205 = EDGE_LOOP('ELDDIT',(#9166));
#9206 = EDGE_LOOP('ELDDIF',(#9167));
#9207 = EDGE_LOOP('ELAAOT',(#9168));
#9208 = EDGE_LOOP('ELAAOF',(#9169));
#9209 = EDGE_LOOP('ELBBOT',(#9170));
#9210 = EDGE_LOOP('ELBBOF',(#9171));
#9211 = EDGE_LOOP('ELDDOT',(#9172));
#9212 = EDGE_LOOP('ELDDOF',(#9173));
/* face_bounds and advanced_faces */
#9213 = FACE_BOUND('bottomcylI',#9202,.T.);
#9214 = FACE_BOUND('topcylI',#9203,.T.);
#9215 = FACE_OUTER_BOUND('bottomtorusI',#9204,.T.);
#9216 = FACE_BOUND('toptorusI',#9205,.T.);
#9217 = FACE_OUTER_BOUND('sphereI',#9206,.T.);
#9218 = FACE_BOUND('bottomcylO',#9207,.T.);
#9219 = FACE_BOUND('topcylO',#9210,.T.);
#9220 = FACE_OUTER_BOUND('bottomtorusO',#9209,.T.);
#9221 = FACE_BOUND('toptorusO',#9212,.T.);
#9222 = FACE_OUTER_BOUND('sphereout',#9211,.T.);
#9223 = FACE_BOUND('baseI',#9201,.T.);
#9224 = FACE_OUTER_BOUND('baseO',#9208,.T.);
#9225 = ADVANCED_FACE('CYlFaceI',(#9213, #9214),#9141,.F.);
#9226 = ADVANCED_FACE('TorusFaceI',(#9215, #9216),#9142,.F.);
#9227 = ADVANCED_FACE('SphFaceI',(#9217),#9143,.T.);
#9228 = ADVANCED_FACE('CylFaceO',(#9218, #9219),#9144,.T.);
#9229 = ADVANCED_FACE('TorusFaceO',(#9220, #9221),#9145,.T.);
#9230 = ADVANCED_FACE('SphFaceO',(#9222),#9146,.F.);
#9231 = ADVANCED_FACE('Base',(#9223, #9224),#9147,.F.);
/* closed_shell and Brep model   */
#9232 = CLOSED_SHELL('LE8shell',(#9225,#9226,#9227,#9228,#9229,#9230,#9231));
#9233 = MANIFOLD_SOLID_BREP('BrepLE4',#9232);
#9234 = (GEOMETRIC_REPRESENTATION_CONTEXT(3)
        GLOBAL_UNCERTAINTY_ASSIGNED_CONTEXT((#9043))
        GLOBAL_UNIT_ASSIGNED_CONTEXT((#9040,#9041,#9042))
        REPRESENTATION_CONTEXT('CONTEXT for LE8 solid',
        'This is a 3D context using metres'));
#9240 = ADVANCED_BREP_SHAPE_REPRESENTATION('ABShapeRep8',(#9233),#9234);
/* Linking shape rep to ddpd */
#9350=SHAPE_DEFINITION_REPRESENTATION(#9260,#9240);
#9260=PRODUCT_DEFINITION_SHAPE('Shell_Shape','Shape of LE8 Solid',#17);
ENDSEC;
END-ISO-10303-21;
