ISO-10303-21;
HEADER;
FILE_DESCRIPTION(('STEP FEA test data geometry','AP203 class 6 - advanced
brep'),'2;1');
FILE_NAME('le7abrep.stp','2001-04-09 T11:00:00',
('R. Goult'),
('Caesar Systems',
'LMR Systems'),
'Hand coded',
'Original NAFEMS data',
'R. Goult');
FILE_SCHEMA(('CONFIG_CONTROL_DESIGN'));
ENDSEC;
DATA;


#1=PRODUCT('LE7solid','LE7 Solid Model','Cylinder sphere shell with
explicit thickness LE7 test piece',(#2));
#2=MECHANICAL_CONTEXT('detailed design',#3,'mechanical');
#3=APPLICATION_CONTEXT('Control the configuration of three dimensional design');
#300=APPLICATION_PROTOCOL_DEFINITION('AP definition status', 'config_control_design', 1994, #3);
#4=CC_DESIGN_PERSON_AND_ORGANIZATION_ASSIGNMENT(#5,#8,(#1));
#5=PERSON_AND_ORGANIZATION(#6,#7);
#6=PERSON('001','Goult','Ray',$,$,$);
#7=ORGANIZATION($,'LMR Systems','Consultancy');
#8=PERSON_AND_ORGANIZATION_ROLE('design_owner');
#9=PRODUCT_RELATED_PRODUCT_CATEGORY('detail','Part Type for product 11111',(#1));
#10=PRODUCT_DEFINITION_FORMATION_WITH_SPECIFIED_SOURCE('LE11S','Description of version with specified source for part LE11',#1,.NOT_KNOWN.);
#11=PERSON_AND_ORGANIZATION_ROLE('creator');
#12=CC_DESIGN_PERSON_AND_ORGANIZATION_ASSIGNMENT(#5,#11,(#10));
#44=CC_DESIGN_APPROVAL(#45,(#10));
#45=APPROVAL(#46,'Approved as initial STEP test case geometry');
#46=APPROVAL_STATUS('approved');
#47=APPROVAL_DATE_TIME(#48,#45);
#48=DATE_AND_TIME(#50,#51);
#50=CALENDAR_DATE(2001,9,4);
#51=LOCAL_TIME(11,29,$,#29);
#69=APPROVAL_PERSON_ORGANIZATION(#5,#45,#72);
#72=APPROVAL_ROLE('Authorize test data release');
#31=CC_DESIGN_SECURITY_CLASSIFICATION(#32,(#10));
#32=SECURITY_CLASSIFICATION('2000-LE11','open availability of STEP test data',#33);
#33=SECURITY_CLASSIFICATION_LEVEL('unclassified');
#34=CC_DESIGN_DATE_AND_TIME_ASSIGNMENT(#48,#39,(#32));
#39=DATE_TIME_ROLE('classification_date');
#40=CC_DESIGN_PERSON_AND_ORGANIZATION_ASSIGNMENT(#5,#43,(#32));
#43=PERSON_AND_ORGANIZATION_ROLE('classification_officer');
#53=CC_DESIGN_APPROVAL(#54,(#32));
#54=APPROVAL(#55,'Approved as unclassified STEP test data');
#55=APPROVAL_STATUS('approved');
#56=APPROVAL_DATE_TIME(#48,#54);
#73=APPROVAL_PERSON_ORGANIZATION(#5,#54,#76);
#76=APPROVAL_ROLE('Authorize security code');
#17=PRODUCT_DEFINITION('D-LE11','geometric model as planned for STEP testing',#10,#18);
#18=DESIGN_CONTEXT('detailed design',#3,'design');
#19=CC_DESIGN_PERSON_AND_ORGANIZATION_ASSIGNMENT(#5,#23,(#17));
#23=PERSON_AND_ORGANIZATION_ROLE('creator');
#24=CC_DESIGN_DATE_AND_TIME_ASSIGNMENT(#25,#30,(#17));
#25=DATE_AND_TIME(#27,#28);
#27=CALENDAR_DATE(2001,9,4);
#28=LOCAL_TIME(12,16,$,#29);
#29=COORDINATED_UNIVERSAL_TIME_OFFSET(1,$,.AHEAD.);
#30=DATE_TIME_ROLE('creation_date');
#61=CC_DESIGN_APPROVAL(#62,(#17));
#62=APPROVAL(#63,'Approved as STEP FEA test geometry');
#63=APPROVAL_STATUS('approved');
#64=APPROVAL_DATE_TIME(#25,#62);
#77=APPROVAL_PERSON_ORGANIZATION(#5,#62,#79);
#79=APPROVAL_ROLE('Authorize product definition');
#80=CC_DESIGN_PERSON_AND_ORGANIZATION_ASSIGNMENT(#81,#84,(#10));
#81=PERSON_AND_ORGANIZATION(#82,#83);
#82=PERSON('CDI-2','Smith','John',$,$,$);
#83=ORGANIZATION('NAFEMS','NAFEMS Ltd.','engineering analysis organization');
#84=PERSON_AND_ORGANIZATION_ROLE('design_supplier');

/* Geometry Definition - actual geometry  - curved surfaces are spherical,
 or cylindrical - NAFEMS dimensions assumed to be of mid-surface
 Suffix I in names refers to inner surface, suffix O to outer surface  */
/* Any instance of global_unit_assigned_context in AP203 shall contain exactly:
 length_unit
 plane_angle_unit
 solid_angle_unit   */
#9040 =(LENGTH_UNIT()NAMED_UNIT(*)SI_UNIT($,.METRE.));
#9041 =(NAMED_UNIT(*)PLANE_ANGLE_UNIT()SI_UNIT($,.RADIAN.));
#9042 =(NAMED_UNIT(*)SOLID_ANGLE_UNIT()SI_UNIT($,.STERADIAN.));
#9043=UNCERTAINTY_MEASURE_WITH_UNIT(LENGTH_MEASURE(0.00000001),#9040,'umsu1','');
#9100 = CARTESIAN_POINT('origin',(0.0,0.0,0.0));
#9102 = DIRECTION('Dir2',(0.0,1.0,0.0));
#9103 = DIRECTION('Dir3',(0.0,0.0,1.0));
#9112 = AXIS2_PLACEMENT_3D('Ax2P3DCyl',#9100,#9102,#9103);
#9120 = CARTESIAN_POINT('CentreSph',(0.0,1.5,0.0));
#9121 = AXIS2_PLACEMENT_3D('Ax2P3DSph',#9120,#9102,#9103);
/* Points and vertices for cylindrical face (ptC at boundary with sphere)  */
#9131 = CARTESIAN_POINT('PtCI',(0.9875,1.5,0.0));
#9132 = VERTEX_POINT('VertPtCI',#9131);
#9133 = CARTESIAN_POINT('PtCO',(1.0125,1.5,0.0));
#9134 = VERTEX_POINT('VertPtCO',#9133);
#9135 = CARTESIAN_POINT('PtFI',(0.9875,0.0,0.0));
#9136 = VERTEX_POINT('VertPtFI',#9135);
#9137 = CARTESIAN_POINT('PtFO',(1.0125,0.0,0.0));
#9138 = VERTEX_POINT('VertPtFO',#9137);
/* Surfaces and edge_curves
   Circ1 is at base, circ2 is intersection of sphere and cylinder */
#9141 = CYLINDRICAL_SURFACE('CylinderI',#9112, 0.9875);
#9142 = SPHERICAL_SURFACE('SphereI',#9121, 0.9875);
#9143 = CYLINDRICAL_SURFACE('CylinderO',#9112, 1.0125);
#9144 = SPHERICAL_SURFACE('SphereO',#9121, 1.0125);
#9145 = PLANE('Base',#9112);
#9151 = CIRCLE('Circ1I',#9112, 0.9875);
#9152 = CIRCLE('Circ2I',#9121, 0.9875);
#9153 = CIRCLE('Circ1O',#9112, 1.0125);
#9154 = CIRCLE('Circ2O',#9121, 1.0125);
#9156 = EDGE_CURVE('EdgeFFCirc1I',#9136,#9136,#9151,.T.);
#9157 = EDGE_CURVE('EdgeFFCirc1O',#9138,#9138,#9153,.T.);
#9158 = EDGE_CURVE('EdgeCCCirc2I',#9132,#9132,#9152,.T.);
#9159 = EDGE_CURVE('EdgeCCCirc2O',#9134,#9134,#9154,.T.);
/* oriented_edges */
#9161 = ORIENTED_EDGE('FFOT',*,*,#9157,.T.);
#9162 = ORIENTED_EDGE('FFOF',*,*,#9157,.F.);
#9163 = ORIENTED_EDGE('CCOT',*,*,#9159,.T.);
#9164 = ORIENTED_EDGE('CCOF',*,*,#9159,.F.);
#9165 = ORIENTED_EDGE('FFIT',*,*,#9156,.T.);
#9166 = ORIENTED_EDGE('FFIF',*,*,#9156,.F.);
#9167 = ORIENTED_EDGE('CCIT',*,*,#9158,.T.);
#9168 = ORIENTED_EDGE('CCIF',*,*,#9158,.F.);
/* edge_loop */
#9201 = EDGE_LOOP('ELFFOT',(#9161));
#9202 = EDGE_LOOP('ELFFOF',(#9162));
#9203 = EDGE_LOOP('ELCCOT',(#9163));    
#9204 = EDGE_LOOP('ELCCOF',(#9164));
#9205 = EDGE_LOOP('ELFFIT',(#9165));
#9206 = EDGE_LOOP('ELFFIF',(#9166));
#9207 = EDGE_LOOP('ELCCIT',(#9167));
#9208 = EDGE_LOOP('ELCCIF',(#9168));
/* face_bounds and advanced_faces */
#9211 = FACE_BOUND('CylbotO',#9201,.T.);
#9212 = FACE_BOUND('CyltopO',#9204,.T.);
#9213 = FACE_OUTER_BOUND('SphbotO',#9203,.T.);
#9214 = FACE_BOUND('CylbotI',#9206,.T.);
#9215 = FACE_BOUND('CyltopI',#9207,.T.);
#9216 = FACE_OUTER_BOUND('SphbotI',#9208,.T.);
#9217 = FACE_OUTER_BOUND('BaseO',#9202,.T.);
#9218 = FACE_BOUND('BaseI',#9205,.T.);
#9220 = ADVANCED_FACE('CylFaceO',(#9211, #9212),#9143,.T.);
#9221 = ADVANCED_FACE('SphFaceO',(#9213),#9144,.T.);
#9222 = ADVANCED_FACE('CylFaceI',(#9214, #9215),#9141,.F.);
#9223 = ADVANCED_FACE('SphFaceI',(#9216),#9142,.F.);
#9224 = ADVANCED_FACE('Baseplane',(#9217, #9218),#9145,.F.);
/* closed_shell and B-rep   */
#9330 = CLOSED_SHELL('LE7shell',(#9220,#9221,#9222,#9223,#9224));
#9331 = MANIFOLD_SOLID_BREP('BrepLE7',#9330);
#9332 = (GEOMETRIC_REPRESENTATION_CONTEXT(3)
        GLOBAL_UNCERTAINTY_ASSIGNED_CONTEXT((#9043))
        GLOBAL_UNIT_ASSIGNED_CONTEXT((#9040,#9041,#9042))
        REPRESENTATION_CONTEXT('CONTEXT for LE7 solid',
        'This is a 3D context using metres'));
#9340 = ADVANCED_BREP_SHAPE_REPRESENTATION('ABShapeRep7',(#9331),#9332);

/* Linking shape rep to ddpd */
#9350=SHAPE_DEFINITION_REPRESENTATION(#9360,#9340);
#9360=PRODUCT_DEFINITION_SHAPE('ABR_Shape','Shape of LE7',#17);
ENDSEC;
END-ISO-10303-21;
