ISO-10303-21;
HEADER;
FILE_DESCRIPTION(('STEP FEA test data geometry','AP203 class 6 - advanced
brep'),'2;1');
FILE_NAME('le6abrep_v2.stp','2001-02-13 T22:37:00',
('R. Goult'),
('Caesar Systems',
'LMR Systems'),
'Hand coded - corrected by DJL',
'Original NAFEMS data',
'R. Goult');
FILE_SCHEMA(('CONFIG_CONTROL_DESIGN'));
ENDSEC;
DATA;


#1=PRODUCT('LE6solid','LE6 Solid Model','Elliptic plate solid portion LE6 test piece',(#2));
#2=MECHANICAL_CONTEXT('detailed design',#3,'mechanical');
#3=APPLICATION_CONTEXT('Control the configuration of three dimensional design');
#300=APPLICATION_PROTOCOL_DEFINITION('AP definition status', 'config_control_design', 1994, #3);
#4=CC_DESIGN_PERSON_AND_ORGANIZATION_ASSIGNMENT(#5,#8,(#1));
#5=PERSON_AND_ORGANIZATION(#6,#7);
#6=PERSON('001','Goult','Ray',$,$,$);
#7=ORGANIZATION($,'LMR Systems','Consultancy');
#8=PERSON_AND_ORGANIZATION_ROLE('design_owner');
#9=PRODUCT_RELATED_PRODUCT_CATEGORY('detail','Part Type for product 11111',(#1));
#10=PRODUCT_DEFINITION_FORMATION_WITH_SPECIFIED_SOURCE('LE6S','Description of version with specified source for part LE6',#1,.NOT_KNOWN.);
#11=PERSON_AND_ORGANIZATION_ROLE('creator');
#12=CC_DESIGN_PERSON_AND_ORGANIZATION_ASSIGNMENT(#5,#11,(#10));
#44=CC_DESIGN_APPROVAL(#45,(#10));
#45=APPROVAL(#46,'Approved as initial STEP test case geometry');
#46=APPROVAL_STATUS('approved');
#47=APPROVAL_DATE_TIME(#48,#45);
#48=DATE_AND_TIME(#50,#51);
#50=CALENDAR_DATE(2000,14,8);
#51=LOCAL_TIME(11,29,$,#29);
#69=APPROVAL_PERSON_ORGANIZATION(#5,#45,#72);
#72=APPROVAL_ROLE('Authorize test data release');
#31=CC_DESIGN_SECURITY_CLASSIFICATION(#32,(#10));
#32=SECURITY_CLASSIFICATION('2000-LE6','open availability of STEP test data',#33);
#33=SECURITY_CLASSIFICATION_LEVEL('unclassified');
#34=CC_DESIGN_DATE_AND_TIME_ASSIGNMENT(#48,#39,(#32));
#39=DATE_TIME_ROLE('classification_date');
#40=CC_DESIGN_PERSON_AND_ORGANIZATION_ASSIGNMENT(#5,#43,(#32));
#43=PERSON_AND_ORGANIZATION_ROLE('classification_officer');
#53=CC_DESIGN_APPROVAL(#54,(#32));
#54=APPROVAL(#55,'Approved as unclassified STEP test data');
#55=APPROVAL_STATUS('approved');
#56=APPROVAL_DATE_TIME(#48,#54);
#73=APPROVAL_PERSON_ORGANIZATION(#5,#54,#76);
#76=APPROVAL_ROLE('Authorize security code');
#17=PRODUCT_DEFINITION('D-LE6','geometric model as planned for STEP testing',#10,#18);
#18=DESIGN_CONTEXT('detailed design',#3,'design');
#19=CC_DESIGN_PERSON_AND_ORGANIZATION_ASSIGNMENT(#5,#23,(#17));
#23=PERSON_AND_ORGANIZATION_ROLE('creator');
#24=CC_DESIGN_DATE_AND_TIME_ASSIGNMENT(#25,#30,(#17));
#25=DATE_AND_TIME(#27,#28);
#27=CALENDAR_DATE(2000,14,8);
#28=LOCAL_TIME(12,16,$,#29);
#29=COORDINATED_UNIVERSAL_TIME_OFFSET(1,$,.AHEAD.);
#30=DATE_TIME_ROLE('creation_date');
#61=CC_DESIGN_APPROVAL(#62,(#17));
#62=APPROVAL(#63,'Approved as STEP FEA test geometry');
#63=APPROVAL_STATUS('approved');
#64=APPROVAL_DATE_TIME(#25,#62);
#77=APPROVAL_PERSON_ORGANIZATION(#5,#62,#79);
#79=APPROVAL_ROLE('Authorize product definition');
#80=CC_DESIGN_PERSON_AND_ORGANIZATION_ASSIGNMENT(#81,#84,(#10));
#81=PERSON_AND_ORGANIZATION(#82,#83);
#82=PERSON('CDI-2','Smith','John',$,$,$);
#83=ORGANIZATION('NAFEMS','NAFEMS Ltd.','engineering analysis organization');
#84=PERSON_AND_ORGANIZATION_ROLE('design_supplier');

/* Geometry Definition - actual geometry, solid model is defined with
   XY plane as central plane of plate (thickness = 0.1 metre) */
/* Any instance of global_unit_assigned_context in AP203 shall contain exactly:
 length_unit
 plane_angle_unit
 solid_angle_unit   */
#9040 =(LENGTH_UNIT()NAMED_UNIT(*)SI_UNIT($,.METRE.));
#9041 =(NAMED_UNIT(*)PLANE_ANGLE_UNIT()SI_UNIT($,.RADIAN.));
#9042 =(NAMED_UNIT(*)SOLID_ANGLE_UNIT()SI_UNIT($,.STERADIAN.));
#9043=UNCERTAINTY_MEASURE_WITH_UNIT(LENGTH_MEASURE(0.00000001),#9040,'umsu1','');
#9100 = CARTESIAN_POINT('origin',(0.0,0.0,0.0));
#9101 = DIRECTION('Dir1',(1.0,0.0,0.0));
#9102 = DIRECTION('Dir2',(0.0,1.0,0.0));
#9103 = DIRECTION('Dir3',(0.0,0.0,1.0));
#9104 = CARTESIAN_POINT('PtAb',(0.0,0.0,-0.05));
#9105 = DIRECTION('DirDA',(-0.866025403,-0.5,0.0));
#9106 = DIRECTION('DirDAnormal',(-0.5,0.866025403,0.0));  /* changed  */
#9107 = VECTOR('VecDA',#9105,1.0);
#9108 = CARTESIAN_POINT('PtBb',(1.0,0.0,-0.05));
#9109 = CARTESIAN_POINT('PtBt',(1.0,0.0,0.05));
#9112 = AXIS2_PLACEMENT_3D('Ax2P3DB',#9104,#9103,#9101);
#9120 = PLANE('PlaneB',#9112);
#9121 = LINE('LineDAb',#9104,#9107);
#9122 = LINE('LineCBb',#9108,#9107);
#9123 = CARTESIAN_POINT('PtAt',(0.0,0.0,0.05));
#9124 = AXIS2_PLACEMENT_3D('Ax2P3DT',#9123,#9103,#9101);
#9125 = PLANE('PlaneT',#9124);
#9126 = LINE('LineDAt',#9123,#9107);
#9127 = LINE('LineCBt',#9109,#9107);
/* Points and vertices for shell  (t = top, b = bottom) */
#9132 = VERTEX_POINT('VertPtAb',#9104);
#9134 = VERTEX_POINT('VertPtAt',#9123);
#9136 = VERTEX_POINT('VertPtBb',#9108);
#9138 = VERTEX_POINT('VertPtBt',#9109);
#9139 = CARTESIAN_POINT('PtCb',(1.866025403,0.5,-0.05));
#9140 = VERTEX_POINT('VertPtCb',#9139);
#9141 = CARTESIAN_POINT('PtCt',(1.866025403,0.5,0.05));
#9142 = VERTEX_POINT('VertPtCt',#9141);
#9143 = CARTESIAN_POINT('PtDb',(0.866025403,0.5,-0.05)); /* changed */
#9144 = VERTEX_POINT('VertPtDb',#9143);
#9145 = CARTESIAN_POINT('PtDt',(0.866025403,0.5,0.05)); /* changed */
#9146 = VERTEX_POINT('VertPtDt',#9145);
/* Lines and edge_curves, bottom to top, e.g. AA is from Ab to At */
#9147 = VECTOR('vertical',#9103, 0.1);
#9148 = LINE('lineAA', #9104, #9147);
#9149 = LINE('lineBB', #9108, #9147);
#9150 = LINE('lineCC', #9139, #9147);
#9151 = LINE('lineDD', #9143, #9147);
#9152 = EDGE_CURVE('EdgeAA',#9132,#9134,#9148,.T.);
#9153 = EDGE_CURVE('EdgeBB',#9136,#9138,#9149,.T.);
#9154 = EDGE_CURVE('EdgeCC',#9140,#9142,#9150,.T.);
#9155 = EDGE_CURVE('EdgeDD',#9144,#9146,#9151,.T.);
/* Slanted edges */
#9156 = EDGE_CURVE('EdgeDAb',#9144,#9132,#9121,.T.);
#9157 = EDGE_CURVE('EdgeDAt',#9146,#9134,#9126,.T.);
#9158 = EDGE_CURVE('EdgeCBb',#9140,#9136,#9122,.T.);
#9159 = EDGE_CURVE('EdgeCBt',#9142,#9138,#9127,.T.);
/* Horizontal lines and edges */
#9160 = VECTOR('xvec',#9101, 1.0);
#9162 = LINE('lineABb', #9104, #9160);
#9163 = LINE('lineABt', #9123, #9160);
#9164 = LINE('lineDCb', #9143, #9160);
#9165 = LINE('lineDCt', #9145, #9160);
#9166 = EDGE_CURVE('EdgeABb',#9132,#9136,#9162,.T.);
#9167 = EDGE_CURVE('EdgeABt',#9134,#9138,#9163,.T.);
#9168 = EDGE_CURVE('EdgeDCb',#9144,#9140,#9164,.T.);
#9169 = EDGE_CURVE('EdgeDCt',#9146,#9142,#9165,.T.);
/* oriented_edges - in pairs */
#9170 = ORIENTED_EDGE('AAT',*,*,#9152,.T.);
#9171 = ORIENTED_EDGE('AAF',*,*,#9152,.F.);
#9172 = ORIENTED_EDGE('BBT',*,*,#9153,.T.);
#9173 = ORIENTED_EDGE('BBF',*,*,#9153,.F.);
#9174 = ORIENTED_EDGE('CCT',*,*,#9154,.T.);
#9175 = ORIENTED_EDGE('CCF',*,*,#9154,.F.);
#9176 = ORIENTED_EDGE('DDT',*,*,#9155,.T.);
#9177 = ORIENTED_EDGE('DDF',*,*,#9155,.F.);
#9178 = ORIENTED_EDGE('DAbT',*,*,#9156,.T.);
#9179 = ORIENTED_EDGE('DAbF',*,*,#9156,.F.);
#9180 = ORIENTED_EDGE('DAtT',*,*,#9157,.T.);
#9181 = ORIENTED_EDGE('DAtF',*,*,#9157,.F.);
#9182 = ORIENTED_EDGE('CBbT',*,*,#9158,.T.);
#9183 = ORIENTED_EDGE('CBbF',*,*,#9158,.F.);
#9184 = ORIENTED_EDGE('CBtT',*,*,#9159,.T.);
#9185 = ORIENTED_EDGE('CBtF',*,*,#9159,.F.);
#9186 = ORIENTED_EDGE('ABbT',*,*,#9166,.T.);
#9187 = ORIENTED_EDGE('ABbF',*,*,#9166,.F.);
#9188 = ORIENTED_EDGE('ABtT',*,*,#9167,.T.);
#9189 = ORIENTED_EDGE('ABtF',*,*,#9167,.F.);
#9190 = ORIENTED_EDGE('DCbT',*,*,#9168,.T.);
#9191 = ORIENTED_EDGE('DCbF',*,*,#9168,.F.);
#9192 = ORIENTED_EDGE('DCtT',*,*,#9169,.T.);
#9193 = ORIENTED_EDGE('DCtF',*,*,#9169,.F.);
/* planes and edge_loops */
#9194 = AXIS2_PLACEMENT_3D('Ax2P3DBC',#9139,#9106,#9103);
#9195 = AXIS2_PLACEMENT_3D('Ax2P3DCD',#9139,#9102,#9103);
#9196 = PLANE('PlaneBC',#9194);
#9197 = PLANE('PlaneCD',#9195);
#9198 = AXIS2_PLACEMENT_3D('Ax2P3DAD',#9100,#9106,#9103);
#9199 = AXIS2_PLACEMENT_3D('Ax2P3DXZ',#9100,#9102,#9103);
#9201 = PLANE('PlaneAB',#9199);
#9202 = PLANE('PlaneAD',#9198);
#9203 = EDGE_LOOP('ELADCBb',(#9179,#9190,#9182,#9187));
#9204 = EDGE_LOOP('ELABCDt',(#9188,#9185,#9193,#9180));
#9205 = EDGE_LOOP('DtDbAbAt',(#9177,#9178,#9170,#9181));
#9206 = EDGE_LOOP('CtCbDbDt',(#9175,#9191,#9176,#9192));
#9207 = EDGE_LOOP('BtBbCbCt',(#9173,#9183,#9174,#9184));
#9208 = EDGE_LOOP('AtAbBbBt',(#9171,#9186,#9172,#9189));
/* face_bounds and advanced_faces */
#9210 = FACE_OUTER_BOUND('Topfb',#9204,.T.);
#9211 = FACE_OUTER_BOUND('Bottomfb',#9203,.T.);
#9212 = FACE_OUTER_BOUND('LeftADfb',#9205,.T.);
#9213 = FACE_OUTER_BOUND('BackDCfb',#9206,.T.);
#9214 = FACE_OUTER_BOUND('RightBCfb',#9207,.T.);
#9215 = FACE_OUTER_BOUND('FrontABfb',#9208,.T.);
#9220 = ADVANCED_FACE('TopFace',(#9210),#9125,.T.);
#9221 = ADVANCED_FACE('BottomFace',(#9211),#9120,.F.);
#9222 = ADVANCED_FACE('LeftADFace',(#9212),#9202,.F.);
#9223 = ADVANCED_FACE('BackDCFace',(#9213),#9197,.T.);
#9224 = ADVANCED_FACE('RightBCFace',(#9214),#9196,.T.);
#9225 = ADVANCED_FACE('FrontABFace',(#9215),#9201,.F.);
/* closed_shell and B-rep   */
#9230 = CLOSED_SHELL('LE6shell',(#9220,#9221,#9222,#9223,#9224,#9225));
#9231 = MANIFOLD_SOLID_BREP('BrepLE6',#9230);
#9232 = (GEOMETRIC_REPRESENTATION_CONTEXT(3)
        GLOBAL_UNCERTAINTY_ASSIGNED_CONTEXT((#9043))
        GLOBAL_UNIT_ASSIGNED_CONTEXT((#9040,#9041,#9042))
        REPRESENTATION_CONTEXT('CONTEXT for LE6 solid',
        'This is a 3D context using metres'));
#9240 = ADVANCED_BREP_SHAPE_REPRESENTATION('ABShapeRepLE6',(#9231),#9232);

/* Linking shape rep to ddpd */
#9250=SHAPE_DEFINITION_REPRESENTATION(#9260,#9240);
#9260=PRODUCT_DEFINITION_SHAPE('ABR_Shape','Shape of LE6',#17);
ENDSEC;
END-ISO-10303-21;
