ISO-10303-21;
HEADER;
FILE_DESCRIPTION(('STEP FEA test data geometry','AP203 class 6 - advanced brep'),'2;6');
FILE_NAME('le3geom.p21','1999-08-02 T10:00:00',
('R. Goult'),
('Caesar Systems',
'LMR Systems'),
'Hand coded',
'Original NAFEMS data',
'R. Goult');
FILE_SCHEMA(('CONFIG_CONTROL_DESIGN'));
ENDSEC;
DATA;


#1=PRODUCT('LE3solid','LE3 Solid Model','Hemi-spherical Shell LE3 test piece -
complete model',(#2));
#2=MECHANICAL_CONTEXT('detailed design',#3,'mechanical');
#3=APPLICATION_CONTEXT('Control the configuration of three dimensional design');
#300=APPLICATION_PROTOCOL_DEFINITION('AP definition status', 'config_control_design', 1994, #3);
#4=CC_DESIGN_PERSON_AND_ORGANIZATION_ASSIGNMENT(#5,#8,(#1));
#5=PERSON_AND_ORGANIZATION(#6,#7);
#6=PERSON('001','Goult','Ray',$,$,$);
#7=ORGANIZATION($,'LMR Systems','Consultancy');
#8=PERSON_AND_ORGANIZATION_ROLE('design_owner');
#9=PRODUCT_RELATED_PRODUCT_CATEGORY('detail','Part Type for product 11111',(#1));
#10=PRODUCT_DEFINITION_FORMATION_WITH_SPECIFIED_SOURCE('LE3S',
'Description of version with specified source for part LE3',#1,.NOT_KNOWN.);
#11=PERSON_AND_ORGANIZATION_ROLE('creator');
#12=CC_DESIGN_PERSON_AND_ORGANIZATION_ASSIGNMENT(#5,#11,(#10));
#44=CC_DESIGN_APPROVAL(#45,(#10));
#45=APPROVAL(#46,'Approved as initial STEP test case geometry');
#46=APPROVAL_STATUS('approved');
#47=APPROVAL_DATE_TIME(#48,#45);
#48=DATE_AND_TIME(#50,#51);
#50=CALENDAR_DATE(1999,8,9);
#51=LOCAL_TIME(11,29,$,#29);
#69=APPROVAL_PERSON_ORGANIZATION(#5,#45,#72);
#72=APPROVAL_ROLE('Authorize test data release');
#31=CC_DESIGN_SECURITY_CLASSIFICATION(#32,(#10));
#32=SECURITY_CLASSIFICATION('1999-LE3','open availability of STEP test data',#33);
#33=SECURITY_CLASSIFICATION_LEVEL('unclassified');
#34=CC_DESIGN_DATE_AND_TIME_ASSIGNMENT(#48,#39,(#32));
#39=DATE_TIME_ROLE('classification_date');
#40=CC_DESIGN_PERSON_AND_ORGANIZATION_ASSIGNMENT(#5,#43,(#32));
#43=PERSON_AND_ORGANIZATION_ROLE('classification_officer');
#53=CC_DESIGN_APPROVAL(#54,(#32));
#54=APPROVAL(#55,'Approved as unclassified STEP test data');
#55=APPROVAL_STATUS('approved');
#56=APPROVAL_DATE_TIME(#48,#54);
#73=APPROVAL_PERSON_ORGANIZATION(#5,#54,#76);
#76=APPROVAL_ROLE('Authorize security code');
#17=PRODUCT_DEFINITION('D-LE2','geometric model as planned for STEP testing',#10,#18);
#18=DESIGN_CONTEXT('detailed design',#3,'design');
#19=CC_DESIGN_PERSON_AND_ORGANIZATION_ASSIGNMENT(#5,#23,(#17));
#23=PERSON_AND_ORGANIZATION_ROLE('creator');
#24=CC_DESIGN_DATE_AND_TIME_ASSIGNMENT(#25,#30,(#17));
#25=DATE_AND_TIME(#27,#28);
#27=CALENDAR_DATE(1999,8,9);
#28=LOCAL_TIME(12,16,$,#29);
#29=COORDINATED_UNIVERSAL_TIME_OFFSET(1,$,.AHEAD.);
#30=DATE_TIME_ROLE('creation_date');
#61=CC_DESIGN_APPROVAL(#62,(#17));
#62=APPROVAL(#63,'Approved as STEP FEA test geometry');
#63=APPROVAL_STATUS('approved');
#64=APPROVAL_DATE_TIME(#25,#62);
#77=APPROVAL_PERSON_ORGANIZATION(#5,#62,#79);
#79=APPROVAL_ROLE('Authorize product definition');
#80=CC_DESIGN_PERSON_AND_ORGANIZATION_ASSIGNMENT(#81,#84,(#10));
#81=PERSON_AND_ORGANIZATION(#82,#83);
#82=PERSON('CDI-2','Smith','John',$,$,$);
#83=ORGANIZATION('NAFEMS','NAFEMS Ltd.','engineering analysis organization');
#84=PERSON_AND_ORGANIZATION_ROLE('design_supplier');

/* Geometry Definition - complete hemispherical shell with explicit boundaries*/
/* Any instance of global_unit_assigned_context in AP203 shall contain exactly:
 length_unit
 plane_angle_unit
 solid_angle_unit   */
#9040 =(LENGTH_UNIT()NAMED_UNIT(*)SI_UNIT($,.METRE.));
#9041 =(NAMED_UNIT(*)PLANE_ANGLE_UNIT()SI_UNIT($,.RADIAN.));
#9042 =(NAMED_UNIT(*)SOLID_ANGLE_UNIT()SI_UNIT($,.STERADIAN.));
#9043=UNCERTAINTY_MEASURE_WITH_UNIT(LENGTH_MEASURE(0.00000001),#9040,'umsu1','');
#9100 = CARTESIAN_POINT('origin',(0.0,0.0,0.0));
#9101 = DIRECTION('Dir1',(1.0,0.0,0.0));
/*  NOT USED: #9102 = DIRECTION('Dir2',(0.0,1.0,0.0));  */
#9103 = DIRECTION('Dir3',(0.0,0.0,1.0));
#9112 = AXIS2_PLACEMENT_3D('Ax2P3D1',#9100,#9103,#9101);
#9120 = PLANE('Base_plane',#9112);
/* Shell is hemispere with mid radius 10m and thickness .04m */
#9121 = CIRCLE('ICirc1',#9112,9.98);
#9122 = CIRCLE('OCirc1',#9112,10.02);
#9129 = SPHERICAL_SURFACE('InSphere', #9112, 9.98);
#9130 = SPHERICAL_SURFACE('OutSphere', #9112, 10.02);
/* Points and vertices for shell  (I = inside, O = outside) */
#9131 = CARTESIAN_POINT('PtAI',(9.98,0.0,0.0));
#9132 = VERTEX_POINT('VertPtAI',#9131);
#9133 = CARTESIAN_POINT('PtAO',(10.02,0.0,0.0));
#9134 = VERTEX_POINT('VertPtAO',#9133);
/*  edge_curves  (start_vertex = end_vertex) */
#9152 = EDGE_CURVE('EdgeAAI',#9132,#9132,#9121,.T.);
#9153 = EDGE_CURVE('EdgeAAO',#9134,#9134,#9122,.T.);
/* oriented_edges - in pairs */
#9170 = ORIENTED_EDGE('AAIT',*,*,#9152,.T.);
#9171 = ORIENTED_EDGE('AAIF',*,*,#9152,.F.);
#9172 = ORIENTED_EDGE('AAOT',*,*,#9153,.T.);
#9173 = ORIENTED_EDGE('AAOF',*,*,#9153,.F.);
/* edge_loops - single circular edge for each */
#9203 = EDGE_LOOP('ELAAIT',(#9170));
#9204 = EDGE_LOOP('ELAAIF',(#9171));
#9205 = EDGE_LOOP('ELAAOT',(#9172));
#9206 = EDGE_LOOP('ELAAOF',(#9173));
/* face_bounds and advanced_faces */
#9210 = FACE_OUTER_BOUND('SpfbO',#9205,.T.);
#9211 = FACE_OUTER_BOUND('SphfbI',#9204,.T.);
#9212 = FACE_OUTER_BOUND('DiscfbO',#9206,.T.);
#9213 = FACE_BOUND('DiscfbDI',#9203,.T.);
#9220 = ADVANCED_FACE('SphFaceO',(#9210),#9130,.T.);
#9221 = ADVANCED_FACE('SphFaceI',(#9211),#9129,.F.);
/* Disc face is planar and has 2 circular bounds,
one of type face_outer_bound */
#9222 = ADVANCED_FACE('DiscFace',(#9212,#9213),#9120,.F.);
/* closed_shell and B-rep   */
#9230 = CLOSED_SHELL('LE3shell',(#9220,#9221,#9222));
#9231 = MANIFOLD_SOLID_BREP('BrepLE3',#9230);
#9232 = (GEOMETRIC_REPRESENTATION_CONTEXT(3)
        GLOBAL_UNCERTAINTY_ASSIGNED_CONTEXT((#9043))
        GLOBAL_UNIT_ASSIGNED_CONTEXT((#9040,#9041,#9042))
        REPRESENTATION_CONTEXT('CONTEXT for LE2 solid',
        'This is a 3D context using metres'));
#9240 = ADVANCED_BREP_SHAPE_REPRESENTATION('ABShapeRep1',(#9231),#9232);

/* Linking shape rep to ddpd */
#9250=SHAPE_DEFINITION_REPRESENTATION(#9260,#9240);
#9260=PRODUCT_DEFINITION_SHAPE('ABR_Shape','Shape of LE2',#17);
ENDSEC;
END-ISO-10303-21;
