ISO-10303-21;
HEADER;
FILE_DESCRIPTION(('STEP FEA test data geometry','AP203 class 6 - advanced brep'),'2;6');
FILE_NAME('le2geom.p21','1999-08-02 T10:00:00',
('R. Goult'),
('Caesar Systems',
'LMR Systems'),
'Hand coded',
'Original NAFEMS data',
'R. Goult');
FILE_SCHEMA(('CONFIG_CONTROL_DESIGN'));
ENDSEC;
DATA;

/*  Line BIO corrected May 2000  */

#1=PRODUCT('LE2solid','LE2 Solid Model','Cylindrical Shell Portion LE2 test piece',(#2));
#2=MECHANICAL_CONTEXT('detailed design',#3,'mechanical');
#3=APPLICATION_CONTEXT('Control the configuration of three dimensional design');
#300=APPLICATION_PROTOCOL_DEFINITION('AP definition status', 'config_control_design', 1994, #3);
#4=CC_DESIGN_PERSON_AND_ORGANIZATION_ASSIGNMENT(#5,#8,(#1));
#5=PERSON_AND_ORGANIZATION(#6,#7);
#6=PERSON('001','Goult','Ray',$,$,$);
#7=ORGANIZATION($,'LMR Systems','Consultancy');
#8=PERSON_AND_ORGANIZATION_ROLE('design_owner');
#9=PRODUCT_RELATED_PRODUCT_CATEGORY('detail','Part Type for product 11111',(#1));
#10=PRODUCT_DEFINITION_FORMATION_WITH_SPECIFIED_SOURCE('LE2S','Description of version with specified source for part LE2',#1,.NOT_KNOWN.);
#11=PERSON_AND_ORGANIZATION_ROLE('creator');
#12=CC_DESIGN_PERSON_AND_ORGANIZATION_ASSIGNMENT(#5,#11,(#10));
#44=CC_DESIGN_APPROVAL(#45,(#10));
#45=APPROVAL(#46,'Approved as initial STEP test case geometry');
#46=APPROVAL_STATUS('approved');
#47=APPROVAL_DATE_TIME(#48,#45);
#48=DATE_AND_TIME(#50,#51);
#50=CALENDAR_DATE(1999,2,8);
#51=LOCAL_TIME(11,29,$,#29);
#69=APPROVAL_PERSON_ORGANIZATION(#5,#45,#72);
#72=APPROVAL_ROLE('Authorize test data release');
#31=CC_DESIGN_SECURITY_CLASSIFICATION(#32,(#10));
#32=SECURITY_CLASSIFICATION('1999-LE2','open availability of STEP test data',#33);
#33=SECURITY_CLASSIFICATION_LEVEL('unclassified');
#34=CC_DESIGN_DATE_AND_TIME_ASSIGNMENT(#48,#39,(#32));
#39=DATE_TIME_ROLE('classification_date');
#40=CC_DESIGN_PERSON_AND_ORGANIZATION_ASSIGNMENT(#5,#43,(#32));
#43=PERSON_AND_ORGANIZATION_ROLE('classification_officer');
#53=CC_DESIGN_APPROVAL(#54,(#32));
#54=APPROVAL(#55,'Approved as unclassified STEP test data');
#55=APPROVAL_STATUS('approved');
#56=APPROVAL_DATE_TIME(#48,#54);
#73=APPROVAL_PERSON_ORGANIZATION(#5,#54,#76);
#76=APPROVAL_ROLE('Authorize security code');
#17=PRODUCT_DEFINITION('D-LE2','geometric model as planned for STEP testing',#10,#18);
#18=DESIGN_CONTEXT('detailed design',#3,'design');
#19=CC_DESIGN_PERSON_AND_ORGANIZATION_ASSIGNMENT(#5,#23,(#17));
#23=PERSON_AND_ORGANIZATION_ROLE('creator');
#24=CC_DESIGN_DATE_AND_TIME_ASSIGNMENT(#25,#30,(#17));
#25=DATE_AND_TIME(#27,#28);
#27=CALENDAR_DATE(1999,2,8);
#28=LOCAL_TIME(12,16,$,#29);
#29=COORDINATED_UNIVERSAL_TIME_OFFSET(1,$,.AHEAD.);
#30=DATE_TIME_ROLE('creation_date');
#61=CC_DESIGN_APPROVAL(#62,(#17));
#62=APPROVAL(#63,'Approved as STEP FEA test geometry');
#63=APPROVAL_STATUS('approved');
#64=APPROVAL_DATE_TIME(#25,#62);
#77=APPROVAL_PERSON_ORGANIZATION(#5,#62,#79);
#79=APPROVAL_ROLE('Authorize product definition');
#80=CC_DESIGN_PERSON_AND_ORGANIZATION_ASSIGNMENT(#81,#84,(#10));
#81=PERSON_AND_ORGANIZATION(#82,#83);
#82=PERSON('CDI-2','Smith','John',$,$,$);
#83=ORGANIZATION('NAFEMS','NAFEMS Ltd.','engineering analysis organization');
#84=PERSON_AND_ORGANIZATION_ROLE('design_supplier');

/* Geometry Definition - actual geometry */
/* Any instance of global_unit_assigned_context in AP203 shall contain exactly:
 length_unit
 plane_angle_unit
 solid_angle_unit   */
#9040 =(LENGTH_UNIT()NAMED_UNIT(*)SI_UNIT($,.METRE.));
#9041 =(NAMED_UNIT(*)PLANE_ANGLE_UNIT()SI_UNIT($,.RADIAN.));
#9042 =(NAMED_UNIT(*)SOLID_ANGLE_UNIT()SI_UNIT($,.STERADIAN.));
#9043=UNCERTAINTY_MEASURE_WITH_UNIT(LENGTH_MEASURE(0.00000001),#9040,'umsu1','');
#9100 = CARTESIAN_POINT('origin',(0.0,0.0,0.0));
#9101 = DIRECTION('Dir1',(1.0,0.0,0.0));
#9102 = DIRECTION('neg2',(0.0,-1.0,0.0));
#9103 = DIRECTION('Dir3',(0.0,0.0,1.0));
#9106 = DIRECTION('slant30',(0.866025403,0.5,0.0));
#9112 = AXIS2_PLACEMENT_3D('Ax2P3D1',#9100,#9103,#9101);
#9120 = PLANE('Plane1',#9112);
#9121 = CIRCLE('ICirc1',#9112,0.995);
#9122 = CIRCLE('OCirc1',#9112,1.005);
#9123 = CARTESIAN_POINT('centre2',(0.0,0.0,0.5));
#9124 = AXIS2_PLACEMENT_3D('Ax2P3D2',#9123,#9103,#9101);
#9125 = PLANE('Plane2',#9124);
#9126 = CIRCLE('ICirc2',#9124,0.995);
#9127 = CIRCLE('OCirc2',#9124,1.005);
#9129 = CYLINDRICAL_SURFACE('InCyl', #9112, 0.995);
#9130 = CYLINDRICAL_SURFACE('OutCyl', #9112, 1.005);
/* Points and vertices for shell  (I = inside, O = outside) */
#9131 = CARTESIAN_POINT('PtAI',(0.995,0.0,0.0));
#9132 = VERTEX_POINT('VertPtAI',#9131);
#9133 = CARTESIAN_POINT('PtAO',(1.005,0.0,0.0));
#9134 = VERTEX_POINT('VertPtAO',#9133);
#9135 = CARTESIAN_POINT('PtBI',(0.995,0.0,0.5));
#9136 = VERTEX_POINT('VertPtBI',#9135);
#9137 = CARTESIAN_POINT('PtBO',(1.005,0.0,0.5));
#9138 = VERTEX_POINT('VertPtBO',#9137);
#9139 = CARTESIAN_POINT('PtCI',(0.861695276,0.4975,0.5));
#9140 = VERTEX_POINT('VertPtCI',#9139);
#9141 = CARTESIAN_POINT('PtCO',(0.87035553,0.5025,0.5));
#9142 = VERTEX_POINT('VertPtCO',#9141);
#9143 = CARTESIAN_POINT('PtDI',(0.861695276,0.4975,0.0));
#9144 = VERTEX_POINT('VertPtDI',#9143);
#9145 = CARTESIAN_POINT('PtDO',(0.87035553,0.5025,0.0));
#9146 = VERTEX_POINT('VertPtDO',#9145);
/* Lines and edge_curves */
#9147 = VECTOR('st-edge',#9103, 0.5);
#9148 = LINE('lineABI', #9131, #9147);
#9149 = LINE('lineABO', #9133, #9147);
#9150 = LINE('lineDCI', #9143, #9147);
#9151 = LINE('lineDCO', #9145, #9147);
#9152 = EDGE_CURVE('EdgeABI',#9132,#9136,#9148,.T.);
#9153 = EDGE_CURVE('EdgeABO',#9134,#9138,#9149,.T.);
#9154 = EDGE_CURVE('EdgeCDI',#9140,#9144,#9150,.F.);
#9155 = EDGE_CURVE('EdgeCDO',#9142,#9146,#9151,.F.);
#9156 = EDGE_CURVE('EdgeBCI',#9136,#9140,#9126,.T.);
#9157 = EDGE_CURVE('EdgeBCO',#9138,#9142,#9127,.T.);
#9158 = EDGE_CURVE('EdgeDAI',#9144,#9132,#9121,.F.);
#9159 = EDGE_CURVE('EdgeDAO',#9146,#9134,#9122,.F.);
#9160 = VECTOR('sl-edge',#9106, 0.01);
#9161 = VECTOR('x-edge',#9101, 0.01);
#9162 = LINE('lineAIO', #9131, #9161);
#9163 = LINE('lineBIO', #9135, #9161);
#9164 = LINE('lineCIO', #9139, #9160);
#9165 = LINE('lineDCO', #9143, #9160);
#9166 = EDGE_CURVE('EdgeAIO',#9132,#9134,#9162,.T.);
#9167 = EDGE_CURVE('EdgeBIO',#9136,#9138,#9163,.T.);
#9168 = EDGE_CURVE('EdgeCIO',#9140,#9142,#9164,.T.);
#9169 = EDGE_CURVE('EdgeDIO',#9144,#9146,#9165,.T.);
/* oriented_edges - in pairs */
#9170 = ORIENTED_EDGE('ABIT',*,*,#9152,.T.);
#9171 = ORIENTED_EDGE('ABIF',*,*,#9152,.F.);
#9172 = ORIENTED_EDGE('ABOT',*,*,#9153,.T.);
#9173 = ORIENTED_EDGE('ABOF',*,*,#9153,.F.);
#9174 = ORIENTED_EDGE('CDIT',*,*,#9154,.T.);
#9175 = ORIENTED_EDGE('CDIF',*,*,#9154,.F.);
#9176 = ORIENTED_EDGE('CDOT',*,*,#9155,.T.);
#9177 = ORIENTED_EDGE('CDOF',*,*,#9155,.F.);
#9178 = ORIENTED_EDGE('BCIT',*,*,#9156,.T.);
#9179 = ORIENTED_EDGE('BCIF',*,*,#9156,.F.);
#9180 = ORIENTED_EDGE('BCOT',*,*,#9157,.T.);
#9181 = ORIENTED_EDGE('BCOF',*,*,#9157,.F.);
#9182 = ORIENTED_EDGE('DAIT',*,*,#9158,.T.);
#9183 = ORIENTED_EDGE('DAIF',*,*,#9158,.F.);
#9184 = ORIENTED_EDGE('DAOT',*,*,#9159,.T.);
#9185 = ORIENTED_EDGE('DAOF',*,*,#9159,.F.);
#9186 = ORIENTED_EDGE('AIOT',*,*,#9166,.T.);
#9187 = ORIENTED_EDGE('AIOF',*,*,#9166,.F.);
#9188 = ORIENTED_EDGE('BIOT',*,*,#9167,.T.);
#9189 = ORIENTED_EDGE('BIOF',*,*,#9167,.F.);
#9190 = ORIENTED_EDGE('CIOT',*,*,#9168,.T.);
#9191 = ORIENTED_EDGE('CIOF',*,*,#9168,.F.);
#9192 = ORIENTED_EDGE('DIOT',*,*,#9169,.T.);
#9193 = ORIENTED_EDGE('DIOF',*,*,#9169,.F.);
/* planes and edge_loops */
#9198 = AXIS2_PLACEMENT_3D('Ax2P3D3',#9131,#9102,#9101);
#9199 = DIRECTION('slant30N',(-0.5,0.866025403,0.0));
#9200 = AXIS2_PLACEMENT_3D('Ax2P3D4',#9143,#9199,#9103);
#9201 = PLANE('Plane3',#9198);
#9202 = PLANE('PlaneS',#9200);
#9203 = EDGE_LOOP('ELADCBO',(#9185,#9177,#9181,#9173));
#9204 = EDGE_LOOP('ELABCDI',(#9170,#9178,#9174,#9182));
#9205 = EDGE_LOOP('ELDC',(#9175,#9190,#9176,#9193));
#9206 = EDGE_LOOP('ELBC',(#9180,#9191,#9179,#9188));
#9207 = EDGE_LOOP('ELAB',(#9172,#9189,#9171,#9186));
#9208 = EDGE_LOOP('ELAD',(#9183,#9192,#9184,#9187));
/* face_bounds and advanced_faces */
#9210 = FACE_OUTER_BOUND('CylfbO',#9203,.T.);
#9211 = FACE_OUTER_BOUND('CylfbI',#9204,.T.);
#9212 = FACE_OUTER_BOUND('frontfbAD',#9208,.T.);
#9213 = FACE_OUTER_BOUND('rightfbDC',#9205,.T.);
#9214 = FACE_OUTER_BOUND('leftfbAB',#9207,.T.);
#9215 = FACE_OUTER_BOUND('backfbBC',#9206,.T.);
#9220 = ADVANCED_FACE('CylFaceO',(#9210),#9130,.T.);
#9221 = ADVANCED_FACE('CylFaceI',(#9211),#9129,.F.);
#9222 = ADVANCED_FACE('FrontFace',(#9212),#9120,.F.);
#9223 = ADVANCED_FACE('RightFace',(#9213),#9202,.T.);
#9224 = ADVANCED_FACE('LeftFace',(#9214),#9201,.T.);
#9225 = ADVANCED_FACE('BackFace',(#9215),#9125,.F.);
/* closed_shell and B-rep   */
#9230 = CLOSED_SHELL('LE2shell',(#9220,#9221,#9222,#9223,#9224,#9225));
#9231 = MANIFOLD_SOLID_BREP('BrepLE2',#9230);
#9232 = (GEOMETRIC_REPRESENTATION_CONTEXT(3)
        GLOBAL_UNCERTAINTY_ASSIGNED_CONTEXT((#9043))
        GLOBAL_UNIT_ASSIGNED_CONTEXT((#9040,#9041,#9042))
        REPRESENTATION_CONTEXT('CONTEXT for LE2 solid','This is a 3D context using metres'));
#9240 = ADVANCED_BREP_SHAPE_REPRESENTATION('ABShapeRep1',(#9231),#9232);

/* Linking shape rep to ddpd */
#9250=SHAPE_DEFINITION_REPRESENTATION(#9260,#9240);
#9260=PRODUCT_DEFINITION_SHAPE('ABR_Shape','Shape of LE2',#17);
ENDSEC;
END-ISO-10303-21;
