ISO-10303-21;
HEADER;
FILE_DESCRIPTION(('STEP FEA test data geometry','AP203 class 6 - advanced
brep'),'2;1');
FILE_NAME('le11abrep_v3.stp','2001-02-28 T10:00:00',
('R. Goult'),
('Caesar Systems',
'LMR Systems'),
'Hand coded',
'Original NAFEMS data - with corrections',
'R. Goult');
FILE_SCHEMA(('CONFIG_CONTROL_DESIGN'));
ENDSEC;
DATA;


#1=PRODUCT('LE11solid','LE11 Solid Model','Elliptic plate solid portion LE11 test piece',(#2));
#2=MECHANICAL_CONTEXT('detailed design',#3,'mechanical');
#3=APPLICATION_CONTEXT('Control the configuration of three dimensional design');
#300=APPLICATION_PROTOCOL_DEFINITION('AP definition status', 'config_control_design', 1994, #3);
#4=CC_DESIGN_PERSON_AND_ORGANIZATION_ASSIGNMENT(#5,#8,(#1));
#5=PERSON_AND_ORGANIZATION(#6,#7);
#6=PERSON('001','Goult','Ray',$,$,$);
#7=ORGANIZATION($,'LMR Systems','Consultancy');
#8=PERSON_AND_ORGANIZATION_ROLE('design_owner');
#9=PRODUCT_RELATED_PRODUCT_CATEGORY('detail','Part Type for product 11111',(#1));
#10=PRODUCT_DEFINITION_FORMATION_WITH_SPECIFIED_SOURCE('LE11S','Description of version with specified source for part LE11',#1,.NOT_KNOWN.);
#11=PERSON_AND_ORGANIZATION_ROLE('creator');
#12=CC_DESIGN_PERSON_AND_ORGANIZATION_ASSIGNMENT(#5,#11,(#10));
#44=CC_DESIGN_APPROVAL(#45,(#10));
#45=APPROVAL(#46,'Approved as initial STEP test case geometry');
#46=APPROVAL_STATUS('approved');
#47=APPROVAL_DATE_TIME(#48,#45);
#48=DATE_AND_TIME(#50,#51);
#50=CALENDAR_DATE(2000,18,8);
#51=LOCAL_TIME(11,29,$,#29);
#69=APPROVAL_PERSON_ORGANIZATION(#5,#45,#72);
#72=APPROVAL_ROLE('Authorize test data release');
#31=CC_DESIGN_SECURITY_CLASSIFICATION(#32,(#10));
#32=SECURITY_CLASSIFICATION('2000-LE11','open availability of STEP test data',#33);
#33=SECURITY_CLASSIFICATION_LEVEL('unclassified');
#34=CC_DESIGN_DATE_AND_TIME_ASSIGNMENT(#48,#39,(#32));
#39=DATE_TIME_ROLE('classification_date');
#40=CC_DESIGN_PERSON_AND_ORGANIZATION_ASSIGNMENT(#5,#43,(#32));
#43=PERSON_AND_ORGANIZATION_ROLE('classification_officer');
#53=CC_DESIGN_APPROVAL(#54,(#32));
#54=APPROVAL(#55,'Approved as unclassified STEP test data');
#55=APPROVAL_STATUS('approved');
#56=APPROVAL_DATE_TIME(#48,#54);
#73=APPROVAL_PERSON_ORGANIZATION(#5,#54,#76);
#76=APPROVAL_ROLE('Authorize security code');
#17=PRODUCT_DEFINITION('D-LE11','geometric model as planned for STEP testing',#10,#18);
#18=DESIGN_CONTEXT('detailed design',#3,'design');
#19=CC_DESIGN_PERSON_AND_ORGANIZATION_ASSIGNMENT(#5,#23,(#17));
#23=PERSON_AND_ORGANIZATION_ROLE('creator');
#24=CC_DESIGN_DATE_AND_TIME_ASSIGNMENT(#25,#30,(#17));
#25=DATE_AND_TIME(#27,#28);
#27=CALENDAR_DATE(2000,18,8);
#28=LOCAL_TIME(12,16,$,#29);
#29=COORDINATED_UNIVERSAL_TIME_OFFSET(1,$,.AHEAD.);
#30=DATE_TIME_ROLE('creation_date');
#61=CC_DESIGN_APPROVAL(#62,(#17));
#62=APPROVAL(#63,'Approved as STEP FEA test geometry');
#63=APPROVAL_STATUS('approved');
#64=APPROVAL_DATE_TIME(#25,#62);
#77=APPROVAL_PERSON_ORGANIZATION(#5,#62,#79);
#79=APPROVAL_ROLE('Authorize product definition');
#80=CC_DESIGN_PERSON_AND_ORGANIZATION_ASSIGNMENT(#81,#84,(#10));
#81=PERSON_AND_ORGANIZATION(#82,#83);
#82=PERSON('CDI-2','Smith','John',$,$,$);
#83=ORGANIZATION('NAFEMS','NAFEMS Ltd.','engineering analysis organization');
#84=PERSON_AND_ORGANIZATION_ROLE('design_supplier');

/* Geometry Definition - actual geometry  - curved surfaces are spherical,
 cylindrical or conical */
/* Any instance of global_unit_assigned_context in AP203 shall contain exactly:
 length_unit
 plane_angle_unit
 solid_angle_unit   */
#9040 =(LENGTH_UNIT()NAMED_UNIT(*)SI_UNIT($,.METRE.));
#9041 =(NAMED_UNIT(*)PLANE_ANGLE_UNIT()SI_UNIT($,.RADIAN.));
#9042 =(NAMED_UNIT(*)SOLID_ANGLE_UNIT()SI_UNIT($,.STERADIAN.));
#9043=UNCERTAINTY_MEASURE_WITH_UNIT(LENGTH_MEASURE(0.00000001),#9040,'umsu1','');
#9100 = CARTESIAN_POINT('origin',(0.0,0.0,0.0));
#9101 = DIRECTION('Dir1',(1.0,0.0,0.0));
#9102 = DIRECTION('Dir2',(0.0,1.0,0.0));
#9103 = DIRECTION('Dir3',(0.0,0.0,1.0));
#9104 = DIRECTION('NegZ',(0.0,0.0,-1.0));
#9112 = AXIS2_PLACEMENT_3D('Ax2P3DB',#9100,#9103,#9101);
/* Curved surfaces */
#9120 = SPHERICAL_SURFACE('InSphere',#9112,1.0);
#9121 = SPHERICAL_SURFACE('OutSphere',#9112,1.4);
#9122 = CYLINDRICAL_SURFACE('InCyl',#9112,0.707106781);
/* CORRECTION: more digit accuracy for radius */
#9123 = CYLINDRICAL_SURFACE('OutCyl',#9112,1.0);
#9124 = CARTESIAN_POINT('ConeAxisPt',(0.0,0.0,1.39));
#9125 = AXIS2_PLACEMENT_3D('Ax2P3DC',#9124,#9104,#9101);
/* Cone is defined with radius measured at z=1.39 and semi-angle in radians */
#9126 = CONICAL_SURFACE('Cone',#9125,1.0,0.298668217);
/* Planes and horizontal circles for bounding curves */
#9127 = PLANE('PlaneBase',#9112);
#9128 = CARTESIAN_POINT('AxisTPt',(0.0,0.0,1.79));
/* CORRECTION: Z coordinate changed from 1.39 to 1.79 */
#9129 = AXIS2_PLACEMENT_3D('Ax2P3DT',#9128,#9103,#9101);
#9130 = PLANE('PlaneT',#9129);
#9131 = CIRCLE('CircA',#9112, 1.0);
#9132 = CIRCLE('CircB',#9112, 1.4);
#9133 = CIRCLE('CircH',#9129, 0.707106781);
/* CORRECTION: more digit accuracy for radius */
#9134 = CIRCLE('CircI',#9129, 1.0);
#9135 = AXIS2_PLACEMENT_3D('Ax2P3DG',#9124,#9103,#9101);
#9136 = CIRCLE('CircG',#9135, 1.0);
#9137 = CARTESIAN_POINT('AxisPtE',(0.0,0.0,0.707106781));
#9138 = AXIS2_PLACEMENT_3D('Ax2P3DE',#9137,#9103,#9101);
#9139 = CIRCLE('CircE',#9138, 0.707106781);
#9140 = CARTESIAN_POINT('AxisPtD',(0.0,0.0,0.7));
#9141 = AXIS2_PLACEMENT_3D('Ax2P3DD',#9140,#9103,#9101);
#9142 = CIRCLE('CircD',#9141, 1.212435565);
/* Points and vertices for shell  (L = on left face) */
#9143 = CARTESIAN_POINT('PtA',(0.0,1.0,0.0));
#9144 = VERTEX_POINT('VertPtA',#9143);
#9145 = CARTESIAN_POINT('PtAL',(1.0,0.0,0.0));
#9146 = VERTEX_POINT('VertPtAL',#9145);
#9147 = CARTESIAN_POINT('PtB',(0.0,1.4,0.0));
#9148 = VERTEX_POINT('VertPtB',#9147);
#9149 = CARTESIAN_POINT('PtBL',(1.4,0.0,0.0));
#9150 = VERTEX_POINT('VertPtBL',#9149);
#9151 = CARTESIAN_POINT('PtD',(0.0,1.212435565,0.7));
#9152 = VERTEX_POINT('VertPtD',#9151);
#9153 = CARTESIAN_POINT('PtDL',(1.212435565,0.0,0.7));
#9154 = VERTEX_POINT('VertPtDL',#9153);
#9155 = CARTESIAN_POINT('PtE',(0.0,0.707106781,0.707106781));
#9156 = VERTEX_POINT('VertPtE',#9155);
#9157 = CARTESIAN_POINT('PtEL',(0.707106781,0.0,0.707106781));
#9158 = VERTEX_POINT('VertPtEL',#9157);
#9159 = CARTESIAN_POINT('PtG',(0.0,1.0,1.39));
#9160 = VERTEX_POINT('VertPtG',#9159);
#9161 = CARTESIAN_POINT('PtGL',(1.0,0.0,1.39));
#9162 = VERTEX_POINT('VertPtGL',#9161);
#9163 = CARTESIAN_POINT('PtH',(0.0,0.707106781,1.79));
/* CORRECTION: more digits for Y coordinate */
#9164 = VERTEX_POINT('VertPtH',#9163);
#9165 = CARTESIAN_POINT('PtHL',(0.707106781,0.0,1.79));
/* CORRECTION: more digits for X coordinate */
#9166 = VERTEX_POINT('VertPtHL',#9165);
#9167 = CARTESIAN_POINT('PtI',(0.0,1.0,1.79));
#9168 = VERTEX_POINT('VertPtI',#9167);
#9169 = CARTESIAN_POINT('PtIL',(1.0,0.0,1.79));
#9170 = VERTEX_POINT('VertPtIL',#9169);
/* Vertical circles and planes and lines*/
#9171 = AXIS2_PLACEMENT_3D('Ax2P3DYZ',#9100,#9101,#9102);
#9172 = PLANE('PlaneYZ',#9171);
#9173 = AXIS2_PLACEMENT_3D('Ax2P3DXZ',#9100,#9102,#9103);
#9174 = PLANE('PlaneXZ',#9173);
#9175 = CIRCLE('CircBD',#9171, 1.4);
#9176 = CIRCLE('CircAE',#9171,1.0);
#9177 = CIRCLE('CircDLBL',#9173,1.4);
#9178 = CIRCLE('CircELAL',#9173,1.0);
#9179 = VECTOR('vertical',#9103, 1.0);
#9180 = LINE('lineEH', #9155, #9179);
#9181 = LINE('lineGI', #9159, #9179);
#9182 = LINE('lineELHL', #9157, #9179);
#9183 = LINE('lineGLIL', #9161, #9179);
#9184 = DIRECTION('DirDG',(0.0,-0.212435565,0.69));
#9185 = VECTOR('VecDG',#9184,1.0);
#9186 = LINE('lineDG', #9151, #9185);
#9187 = DIRECTION('DirDLGL',(-0.212435565,0.0,0.69));
#9188 = VECTOR('VecDLGL',#9187,1.0);
#9189 = LINE('lineDLGL', #9153, #9188);
/* edge_curves follow curve senses */
#9190 = EDGE_CURVE('EdgeBLB',#9150,#9148,#9132,.T.);
#9191 = EDGE_CURVE('EdgeDLD',#9154,#9152,#9142,.T.);
#9192 = EDGE_CURVE('EdgeGLG',#9162,#9160,#9136,.T.);
#9193 = EDGE_CURVE('EdgeILI',#9170,#9168,#9134,.T.);
#9194 = EDGE_CURVE('EdgeALA',#9146,#9144,#9131,.T.);
#9195 = EDGE_CURVE('EdgeELE',#9158,#9156,#9139,.T.);
#9196 = EDGE_CURVE('EdgeHLH',#9166,#9164,#9133,.T.);
#9197 = EDGE_CURVE('EdgeBD',#9148,#9152,#9175,.T.);
#9198 = EDGE_CURVE('EdgeDG',#9152,#9160,#9186,.T.);
#9199 = EDGE_CURVE('EdgeGI',#9160,#9168,#9181,.T.);
#9200 = EDGE_CURVE('EdgeAE',#9144,#9156,#9176,.T.);
#9202 = EDGE_CURVE('EdgeEH',#9156,#9164,#9180,.T.);
/* Horizontal lines and edges */
#9203 = VECTOR('xvec',#9101, 1.0);
#9204 = VECTOR('yvec',#9102, 1.0);
#9205 = LINE('lineAB', #9143, #9204);
#9206 = LINE('lineALBL', #9145, #9203);
#9207 = LINE('lineHI', #9163, #9204);
#9208 = LINE('lineHLIL', #9165, #9203);
#9209 = EDGE_CURVE('EdgeAB',#9144,#9148,#9205,.T.);
#9210 = EDGE_CURVE('EdgeALBL',#9146,#9150,#9206,.T.);
#9211 = EDGE_CURVE('EdgeHI',#9164,#9168,#9207,.T.);
#9212 = EDGE_CURVE('EdgeHLIL',#9166,#9170,#9208,.T.);
/* oriented_edges - in pairs */
#9213 = ORIENTED_EDGE('BLBT',*,*,#9190,.T.);
#9214 = ORIENTED_EDGE('BLBF',*,*,#9190,.F.);
#9215 = ORIENTED_EDGE('DLDT',*,*,#9191,.T.);
#9216 = ORIENTED_EDGE('DLDF',*,*,#9191,.F.);
#9217 = ORIENTED_EDGE('GLGT',*,*,#9192,.T.);
#9218 = ORIENTED_EDGE('GLGF',*,*,#9192,.F.);
#9219 = ORIENTED_EDGE('ILIT',*,*,#9193,.T.);
#9220 = ORIENTED_EDGE('ILIF',*,*,#9193,.F.);
#9221 = ORIENTED_EDGE('ALAT',*,*,#9194,.T.);
#9222 = ORIENTED_EDGE('ALAF',*,*,#9194,.F.);
#9223 = ORIENTED_EDGE('ELET',*,*,#9195,.T.);
#9224 = ORIENTED_EDGE('ELEF',*,*,#9195,.F.);
#9225 = ORIENTED_EDGE('HLHT',*,*,#9196,.T.);
#9226 = ORIENTED_EDGE('HLHF',*,*,#9196,.F.);
#9227 = ORIENTED_EDGE('BDT',*,*,#9197,.T.);
#9228 = ORIENTED_EDGE('BDF',*,*,#9197,.F.);
#9229 = ORIENTED_EDGE('DGT',*,*,#9198,.T.);
#9230 = ORIENTED_EDGE('DGF',*,*,#9198,.F.);
#9231 = ORIENTED_EDGE('GIT',*,*,#9199,.T.);
#9232 = ORIENTED_EDGE('GIF',*,*,#9199,.F.);
#9233 = ORIENTED_EDGE('AET',*,*,#9200,.T.);
#9234 = ORIENTED_EDGE('AEF',*,*,#9200,.F.);
#9235 = ORIENTED_EDGE('EHT',*,*,#9202,.T.);
#9236 = ORIENTED_EDGE('EHF',*,*,#9202,.F.);
#9237 = ORIENTED_EDGE('ABT',*,*,#9209,.T.);
#9238 = ORIENTED_EDGE('ABF',*,*,#9209,.F.);
#9239 = ORIENTED_EDGE('ALBLT',*,*,#9210,.T.);
#9240 = ORIENTED_EDGE('ALBLF',*,*,#9210,.F.);
#9241 = ORIENTED_EDGE('HIT',*,*,#9211,.T.);
#9242 = ORIENTED_EDGE('HIF',*,*,#9211,.F.);
#9243 = ORIENTED_EDGE('HLILT',*,*,#9212,.T.);
#9244 = ORIENTED_EDGE('HLILF',*,*,#9212,.F.);
/* edge_curves and oriented_edges on left face */
#9245 = EDGE_CURVE('EdgeDLBL',#9154,#9150,#9177,.T.);
#9246 = EDGE_CURVE('EdgeDLGL',#9154,#9162,#9189,.T.);
#9247 = EDGE_CURVE('EdgeGLIL',#9162,#9170,#9183,.T.);
#9248 = EDGE_CURVE('EdgeELAL',#9158,#9146,#9178,.T.);
#9249 = EDGE_CURVE('EdgeELHL',#9158,#9166,#9182,.T.);
#9250 = ORIENTED_EDGE('DLBLT',*,*,#9245,.T.);
#9251 = ORIENTED_EDGE('DLBLF',*,*,#9245,.F.);
#9252 = ORIENTED_EDGE('DLGLT',*,*,#9246,.T.);
#9253 = ORIENTED_EDGE('DLGLF',*,*,#9246,.F.);
#9254 = ORIENTED_EDGE('GLILT',*,*,#9247,.T.);
#9255 = ORIENTED_EDGE('GLILF',*,*,#9247,.F.);
#9256 = ORIENTED_EDGE('ELALT',*,*,#9248,.T.);
#9257 = ORIENTED_EDGE('ELALF',*,*,#9248,.F.);
#9258 = ORIENTED_EDGE('ELHLT',*,*,#9249,.T.);
#9259 = ORIENTED_EDGE('ELHLF',*,*,#9249,.F.);
/* edge_loops and face_bounds */
#9260 = EDGE_LOOP('BlBDDl',(#9213,#9227,#9216,#9250));
#9261 = EDGE_LOOP('DlDGGl',(#9215,#9229,#9218,#9253));
#9262 = EDGE_LOOP('GlGIIl',(#9217,#9231,#9220,#9255));
#9263 = EDGE_LOOP('IlIHHl',(#9219,#9242,#9226,#9243));
#9264 = EDGE_LOOP('HEElHl',(#9236,#9224,#9258,#9225));
#9265 = EDGE_LOOP('EAAlEl',(#9234,#9222,#9257,#9223));
#9266 = EDGE_LOOP('AlABBl',(#9221,#9237,#9214,#9240));
#9267 = EDGE_LOOP('IGDBAEH',(#9232,#9230,#9228,#9238,#9233,#9235,#9241));
#9268 = EDGE_LOOP('BlDlGlIlHlElAl',(#9251,#9252,#9254,#9244,#9259,#9256,#9239));
/* face_bounds and advanced_faces */
#9269 = FACE_OUTER_BOUND('OutSphfb',#9260,.T.);
#9270 = FACE_OUTER_BOUND('Conefb',#9261,.T.);
#9271 = FACE_OUTER_BOUND('OutCylfb',#9262,.T.);
#9272 = FACE_OUTER_BOUND('Topfb',#9263,.T.);
#9273 = FACE_OUTER_BOUND('InCylfb',#9264,.T.);
#9274 = FACE_OUTER_BOUND('InSphfb',#9265,.T.);
#9275 = FACE_OUTER_BOUND('Basefb',#9266,.T.);
#9276 = FACE_OUTER_BOUND('YZendfb',#9267,.T.);
#9277 = FACE_OUTER_BOUND('XZendfb',#9268,.T.);
#9278 = ADVANCED_FACE('OutSphFace',(#9269),#9121,.T.);
#9279 = ADVANCED_FACE('ConeFace',(#9270),#9126,.T.);
#9280 = ADVANCED_FACE('OutCylFace',(#9271),#9123,.T.);
#9281 = ADVANCED_FACE('TopFace',(#9272),#9130,.T.);
#9282 = ADVANCED_FACE('InCylFace',(#9273),#9122,.F.);
#9283 = ADVANCED_FACE('InSphFace',(#9274),#9120,.F.);
#9284 = ADVANCED_FACE('BaseFace',(#9275),#9127,.F.);
#9285 = ADVANCED_FACE('YZendFace',(#9276),#9172,.F.);
#9286 = ADVANCED_FACE('XZendFace',(#9277),#9174,.F.);
/* closed_shell and B-rep   */
#9330 = CLOSED_SHELL('LE11shell',(#9278,#9279,#9280,#9281,#9282,#9283,
                                   #9284,#9285,#9286));
#9331 = MANIFOLD_SOLID_BREP('BrepLE11',#9330);
#9332 = (GEOMETRIC_REPRESENTATION_CONTEXT(3)
        GLOBAL_UNCERTAINTY_ASSIGNED_CONTEXT((#9043))
        GLOBAL_UNIT_ASSIGNED_CONTEXT((#9040,#9041,#9042))
        REPRESENTATION_CONTEXT('CONTEXT for LE11 solid',
        'This is a 3D context using metres'));
#9340 = ADVANCED_BREP_SHAPE_REPRESENTATION('ABShapeRep1',(#9331),#9332);

/* Linking shape rep to ddpd */
#9350=SHAPE_DEFINITION_REPRESENTATION(#9360,#9340);
#9360=PRODUCT_DEFINITION_SHAPE('ABR_Shape','Shape of LE11',#17);
ENDSEC;
END-ISO-10303-21;
